Bjork - Come To Me (var.2) Bass tab download free or play online

Bass tab for Come To Me (var.2) by Bjork free download and read or play online: file .txt, 2.32 kb has 152 views and 0 downloads.

Download bass tab "Come To Me (var.2)" (Bjork)

Bjork Band name
Come To Me Song name
Bass tabs Tab type
2.32 kb File size
.TXT File type
152 views
0 downloads
 
Are you robot?

Come To Me (var.2) bass tab read and play online

                    Come To Me Bass Tab by Bjork, 


-------------------------------------------------------------------------------
			     Come To Me - Bjork
-------------------------------------------------------------------------------

Tabbed By : Ast Derek
e-mail: ast_derek@mexico.com

[Riff 1]
   * ' * ' * ' * '   * ' * ' * ' * '   * ' * ' * ' * '   * ' * ' * ' * '
E|-----------------|-----------------|-----------------|-----------------|
A|---------7---9---|-----7--------(7)|---------7---9---|-----7--------(7)|
D|-------7---------|-----------x-7---|-------7---------|-----------x-7---|
G|-5---------------|-----------------|-5---------------|-----------------|

[Riff 2]
  * ' * ' * ' * '   * ' * ' * ' * '   * ' * ' * ' * '   * ' * ' * ' * '
|-----------------|-----------------|-----------------|-----------------|
|---------8---10--|-----8--------(8)|---------8---10--|-----8--------(8)|
|-------8---------|-----------x-8---|-------8---------|-----------x-8---|
|-6---------------|-----------------|-6---------------|-----------------|


[Riff 3]
  * ' * ' * ' * '   * ' * ' * ' * '   * ' * ' * ' * '   * ' * ' * ' * '
|-----------------|-----------------|-----------------|-----------------|
|---------3---5---|-----3--------(3)|---------3---5---|-----3--------(3)|
|-------3---------|-----------x-3---|-------3---------|-----------x-3---|
|-1---------------|-----------------|-1---------------|-----------------|

[Riff 4]
  * ' * ' * ' * '   * ' * ' * ' * '   * ' * ' * ' * '   * ' * ' * ' * '
|-----------------|-----------------|-----------------|-----------------|
|---------10--12--|-----10-------(10)---------10--12--|-----10-------(10)
|-------10--------|-----------x-10--|-------10--------|-----------x-10--|
|-8---------------|-----------------|-8---------------|-----------------|

[Riff 5]
  * ' * ' * ' * '   * ' * ' * ' * '   * ' * ' * ' * '   * ' * ' * ' * '
|-----------------|-----------------|-----------------|-----------------|
|---------2---4---|-----2--------(2)|---------2---4---|-----2--------(2)|
|-------2---------|-----------x-2---|-------2---------|-----------x-2---|
|-0---------------|-----------------|-0---------------|-----------------|


Verse
[Riff 1 | Riff 2] x7

Chorus
[Riff 2 | Riff 1 ] x2
[Riff 3 | Riff 4 | Riff 2 | Riff 5]

() = Ghost Note

Simple enough, if you are not sure what to play, just follow the verse pattern over and over.                    

Comments for bass tab — Come To Me (var.2) (Bjork)

Other Come To Me (var.2) by Bjork tabs:

Last viewed Bjork tabs: