Bjork - Venus As A Boy Bass tab download free or play online

Bass tab for Venus As A Boy by Bjork free download and read or play online: file .txt, 0.88 kb has 212 views and 1 downloads.

Download bass tab "Venus As A Boy" (Bjork)

Bjork Band name
Venus As A Boy Song name
Bass tabs Tab type
0.88 kb File size
.TXT File type
212 views
1 downloads
 
Are you robot?

Venus As A Boy bass tab read and play online

                    Bjork - "Venus As A Boy"


  Intro/Interlude

G|------------------------------------------------|
D|-----------------------------------------7-6----|
A|--9-7------9-7-9-7--------9-7------9-7-9--------|
E|9-----9------------9----9-----9-----------------|


  Verse/Chorus/Outro Riff

G|---------6----------------------------6-5--|
D|--------------6--6--8-----8--8------8------|
A|-----9-7----------------6---------6--------|
E|0--9---------------------------------------|


Tabbed by Christopher.
Please send any corrections to the Bass Tab Archive [www.basstabarchive.com]                    

Comments for bass tab — Venus As A Boy (Bjork)

Other Venus As A Boy by Bjork tabs:

Last viewed Bjork tabs: