Bjork - Unravel (var.4) Guitar tab download free or play online

Guitar tab for Unravel (var.4) by Bjork free download and read or play online: file .txt, 0.84 kb has 182 views and 0 downloads.

Download guitar tab "Unravel (var.4)" (Bjork)

Bjork Band name
Unravel Song name
Guitar tabs Tab type
0.84 kb File size
.TXT File type
182 views
0 downloads
 
Are you robot?

Unravel (var.4) guitar tab read and play online

                    Unravel Tab by Bjork, 


If you know the song (and if you didn't, why are you looking it up then?) you should be 
to figure ou this tab with little explanation.

Intro
E |------------------------------|
B |------------------------------|
G |------------------------------|
D |--------0-------0-------------|
A |----3-------3-----------------|
E |------------------------------|

then

Verse part 1
E |-----------------------------|
B |----------------0------------|
G |--------2-----------0--------|
D |------------0----------------|
A |----3------------------------|
E |-----------------------------|

part 2
E |----3---2---2---0-------------|
B |------------------------------|
G |------------------------------|
D |------------------------------|
A |------------------------------|
E |------------------------------|

sorry I can't get the organ part at the end.                    

Comments for guitar tab — Unravel (var.4) (Bjork)

Other Unravel (var.4) by Bjork tabs:

Last viewed Bjork tabs: